ISO-10303-21;
HEADER;
FILE_DESCRIPTION (( 'STEP AP203' ),
    '1' );
FILE_NAME ('FULLVAC BS1kf1619.STEP',
    '2018-07-12T10:39:14',
    ( '' ),
    ( '' ),
    'SwSTEP 2.0',
    'SolidWorks 2017',
    '' );
FILE_SCHEMA (( 'CONFIG_CONTROL_DESIGN' ));
ENDSEC;

DATA;
#1 = DIRECTION ( 'NONE',  ( 0.0000000000000000000, 0.0000000000000000000, -1.000000000000000000 ) ) ;
#2 = PERSON_AND_ORGANIZATION ( #201, #192 ) ;
#3 = DIRECTION ( 'NONE',  ( 0.0000000000000000000, -0.0000000000000000000, 1.000000000000000000 ) ) ;
#4 = CARTESIAN_POINT ( 'NONE',  ( 0.0000000000000000000, 1.860000000000000100, -8.599999999999999600 ) ) ;
#5 =( LENGTH_UNIT ( ) NAMED_UNIT ( * ) SI_UNIT ( .MILLI., .METRE. ) );
#6 = CARTESIAN_POINT ( 'NONE',  ( 0.0000000000000000000, 0.6000000000000029800, -8.255000000000000800 ) ) ;
#7 = DATE_TIME_ROLE ( 'creation_date' ) ;
#8 = COORDINATED_UNIVERSAL_TIME_OFFSET ( 1, 0, .AHEAD. ) ;
#9 = DIRECTION ( 'NONE',  ( -0.0000000000000000000, 1.000000000000000000, -0.0000000000000000000 ) ) ;
#10 = CC_DESIGN_PERSON_AND_ORGANIZATION_ASSIGNMENT ( #204, #144, ( #196 ) ) ;
#11 = EDGE_LOOP ( 'NONE', ( #110 ) ) ;
#12 = AXIS2_PLACEMENT_3D ( 'NONE', #284, #186, #239 ) ;
#13 = DATE_AND_TIME ( #119, #147 ) ;
#14 = CC_DESIGN_PERSON_AND_ORGANIZATION_ASSIGNMENT ( #60, #221, ( #72 ) ) ;
#15 = CARTESIAN_POINT ( 'NONE',  ( 0.0000000000000000000, 1.300700580844955900, 0.0000000000000000000 ) ) ;
#16 = AXIS2_PLACEMENT_3D ( 'NONE', #95, #169, #25 ) ;
#17 = DIRECTION ( 'NONE',  ( -0.0000000000000000000, 1.000000000000000000, -0.0000000000000000000 ) ) ;
#18 = PERSON_AND_ORGANIZATION ( #201, #192 ) ;
#19 = EDGE_LOOP ( 'NONE', ( #107 ) ) ;
#20 = DIRECTION ( 'NONE',  ( 0.0000000000000000000, 0.0000000000000000000, -1.000000000000000000 ) ) ;
#21 = CARTESIAN_POINT ( 'NONE',  ( 0.0000000000000000000, 1.783663493989480000, -15.00000000000000200 ) ) ;
#22 = CARTESIAN_POINT ( 'NONE',  ( 0.0000000000000000000, 1.783663493989480000, 0.0000000000000000000 ) ) ;
#23 = DIRECTION ( 'NONE',  ( 0.0000000000000000000, 1.000000000000000000, 0.0000000000000000000 ) ) ;
#24 = CARTESIAN_POINT ( 'NONE',  ( 0.0000000000000000000, 1.300700580844956500, 14.62940952255130100 ) ) ;
#25 = DIRECTION ( 'NONE',  ( 0.0000000000000000000, 0.0000000000000000000, -1.000000000000000000 ) ) ;
#26 = EDGE_LOOP ( 'NONE', ( #175 ) ) ;
#27 =( NAMED_UNIT ( * ) PLANE_ANGLE_UNIT ( ) SI_UNIT ( $, .RADIAN. ) );
#28 = CARTESIAN_POINT ( 'NONE',  ( 0.0000000000000000000, 1.111133754450044400E-011, 0.0000000000000000000 ) ) ;
#29 = FACE_OUTER_BOUND ( 'NONE', #209, .T. ) ;
#30 = FACE_BOUND ( 'NONE', #298, .T. ) ;
#31 = APPLICATION_CONTEXT ( 'configuration controlled 3d designs of mechanical parts and assemblies' ) ;
#32 = EDGE_LOOP ( 'NONE', ( #228 ) ) ;
#33 = AXIS2_PLACEMENT_3D ( 'NONE', #52, #127, #270 ) ;
#34 = FACE_OUTER_BOUND ( 'NONE', #93, .T. ) ;
#35 = ORIENTED_EDGE ( 'NONE', *, *, #206, .F. ) ;
#36 = CC_DESIGN_DATE_AND_TIME_ASSIGNMENT ( #120, #7, ( #158 ) ) ;
#37 = EDGE_LOOP ( 'NONE', ( #101 ) ) ;
#38 = DIRECTION ( 'NONE',  ( 0.0000000000000000000, 1.000000000000000000, 0.0000000000000000000 ) ) ;
#39 = VERTEX_POINT ( 'NONE', #160 ) ;
#40 = ADVANCED_FACE ( 'NONE', ( #233, #173 ), #198, .T. ) ;
#41 = DIRECTION ( 'NONE',  ( 0.0000000000000000000, -1.000000000000000000, 0.0000000000000000000 ) ) ;
#42 = DIRECTION ( 'NONE',  ( 0.0000000000000000000, -1.000000000000000000, 0.0000000000000000000 ) ) ;
#43 = CARTESIAN_POINT ( 'NONE',  ( 8.599999999999999600, 1.860000000000000100, 0.0000000000000000000 ) ) ;
#44 = CARTESIAN_POINT ( 'NONE',  ( 0.0000000000000000000, 1.300700580844955900, -14.62940952255129700 ) ) ;
#45 = VERTEX_POINT ( 'NONE', #6 ) ;
#46 = ORIENTED_EDGE ( 'NONE', *, *, #96, .T. ) ;
#47 = CARTESIAN_POINT ( 'NONE',  ( 29.99999999999999600, 1.783663493989480000, -14.99999999999999800 ) ) ;
#48 = CARTESIAN_POINT ( 'NONE',  ( 0.0000000000000000000, 1.361611643136658100, -14.85673270176685000 ) ) ;
#49 = COORDINATED_UNIVERSAL_TIME_OFFSET ( 1, 0, .AHEAD. ) ;
#50 = ORIENTED_EDGE ( 'NONE', *, *, #151, .T. ) ;
#51 = APPROVAL_ROLE ( '' ) ;
#52 = CARTESIAN_POINT ( 'NONE',  ( 0.0000000000000000000, 0.3000000000000019900, 0.0000000000000000000 ) ) ;
#53 = APPLICATION_PROTOCOL_DEFINITION ( 'international standard', 'config_control_design', 1994, #197 ) ;
#54 = AXIS2_PLACEMENT_3D ( 'NONE', #15, #131, #262 ) ;
#55 = CALENDAR_DATE ( 2018, 12, 7 ) ;
#56 = EDGE_LOOP ( 'NONE', ( #61 ) ) ;
#57 = DATE_AND_TIME ( #305, #140 ) ;
#58 = CONICAL_SURFACE ( 'NONE', #312, 14.62940952255385300, 1.308996939000000000 ) ;
#59 = AXIS2_PLACEMENT_3D ( 'NONE', #240, #42, #152 ) ;
#60 = PERSON_AND_ORGANIZATION ( #201, #192 ) ;
#61 = ORIENTED_EDGE ( 'NONE', *, *, #203, .T. ) ;
#62 = CARTESIAN_POINT ( 'NONE',  ( 0.0000000000000000000, 4.400000000000000400, 0.0000000000000000000 ) ) ;
#63 = DATE_AND_TIME ( #137, #90 ) ;
#64 = AXIS2_PLACEMENT_3D ( 'NONE', #229, #279, #260 ) ;
#65 = DIRECTION ( 'NONE',  ( 0.0000000000000000000, -1.000000000000000000, 0.0000000000000000000 ) ) ;
#66 = APPROVAL ( #128, 'UNSPECIFIED' ) ;
#67 = CARTESIAN_POINT ( 'NONE',  ( 0.0000000000000000000, 1.783663493989480000, 15.00000000000000200 ) ) ;
#68 = CARTESIAN_POINT ( 'NONE',  ( 15.00000000000000000, 4.400000000000000400, 0.0000000000000000000 ) ) ;
#69 = VERTEX_POINT ( 'NONE', #4 ) ;
#70 = AXIS2_PLACEMENT_3D ( 'NONE', #87, #41, #307 ) ;
#71 = CARTESIAN_POINT ( 'NONE',  ( 0.0000000000000000000, 0.6000000000000029800, -9.650000000000000400 ) ) ;
#72 = PRODUCT ( 'FULLVAC BS1kf1619', 'FULLVAC BS1kf1619', '', ( #199 ) ) ;
#73 = CARTESIAN_POINT ( 'NONE',  ( 0.0000000000000000000, 1.783663493989480000, -15.00000000000000200 ) ) ;
#74 = DIRECTION ( 'NONE',  ( 0.0000000000000000000, 1.000000000000000000, 0.0000000000000000000 ) ) ;
#75 = CIRCLE ( 'NONE', #267, 15.00000000000000000 ) ;
#76 = CIRCLE ( 'NONE', #54, 14.62940952255129700 ) ;
#77 = UNCERTAINTY_MEASURE_WITH_UNIT (LENGTH_MEASURE( 1.000000000000000100E-005 ), #5, 'distance_accuracy_value', 'NONE');
#78 = EDGE_CURVE ( 'NONE', #250, #250, #232, .T. ) ;
#79 = ORIENTED_EDGE ( 'NONE', *, *, #292, .T. ) ;
#80 = CC_DESIGN_SECURITY_CLASSIFICATION ( #86, ( #196 ) ) ;
#81 = AXIS2_PLACEMENT_3D ( 'NONE', #265, #191, #118 ) ;
#82 = DIRECTION ( 'NONE',  ( 0.0000000000000000000, -0.0000000000000000000, 1.000000000000000000 ) ) ;
#83 = ADVANCED_FACE ( 'NONE', ( #243, #161 ), #256, .F. ) ;
#84 = EDGE_LOOP ( 'NONE', ( #79 ) ) ;
#85 = CARTESIAN_POINT ( 'NONE',  ( 0.0000000000000000000, 1.300700580835420400, 0.0000000000000000000 ) ) ;
#86 = SECURITY_CLASSIFICATION ( '', '', #252 ) ;
#87 = CARTESIAN_POINT ( 'NONE',  ( 0.0000000000000000000, 0.6000000000000029800, 0.0000000000000000000 ) ) ;
#88 = CARTESIAN_POINT ( 'NONE',  ( 0.0000000000000000000, 1.300700580844956500, -14.62940952255130100 ) ) ;
#89 = CIRCLE ( 'NONE', #275, 15.00000000000000000 ) ;
#90 = LOCAL_TIME ( 12, 39, 14.00000000000000000, #8 ) ;
#91 = FACE_OUTER_BOUND ( 'NONE', #248, .T. ) ;
#92 = EDGE_CURVE ( 'NONE', #39, #39, #89, .T. ) ;
#93 = EDGE_LOOP ( 'NONE', ( #50 ) ) ;
#94 = PERSON_AND_ORGANIZATION_ROLE ( 'classification_officer' ) ;
#95 = CARTESIAN_POINT ( 'NONE',  ( 0.0000000000000000000, 2.899999999999999900, 0.0000000000000000000 ) ) ;
#96 = EDGE_CURVE ( 'NONE', #69, #69, #99, .T. ) ;
#97 = APPROVAL_STATUS ( 'not_yet_approved' ) ;
#98 = CIRCLE ( 'NONE', #113, 9.650000000000000400 ) ;
#99 = CIRCLE ( 'NONE', #64, 8.599999999999999600 ) ;
#100 = APPROVAL_ROLE ( '' ) ;
#101 = ORIENTED_EDGE ( 'NONE', *, *, #203, .F. ) ;
#102 = APPROVAL ( #97, 'UNSPECIFIED' ) ;
#103 =( GEOMETRIC_REPRESENTATION_CONTEXT ( 3 ) GLOBAL_UNCERTAINTY_ASSIGNED_CONTEXT ( ( #77 ) ) GLOBAL_UNIT_ASSIGNED_CONTEXT ( ( #5, #27, #174 ) ) REPRESENTATION_CONTEXT ( 'NONE', 'WORKASPACE' ) );
#104 = LOCAL_TIME ( 12, 39, 14.00000000000000000, #121 ) ;
#105 = CLOSED_SHELL ( 'NONE', ( #259, #133, #40, #208, #303, #280, #237, #234, #210, #83 ) ) ;
#106 = DIRECTION ( 'NONE',  ( 0.0000000000000000000, 0.0000000000000000000, -1.000000000000000000 ) ) ;
#107 = ORIENTED_EDGE ( 'NONE', *, *, #254, .T. ) ;
#108 = CARTESIAN_POINT ( 'NONE',  ( 0.0000000000000000000, 3.129999999999999900, 0.0000000000000000000 ) ) ;
#109 = PERSON_AND_ORGANIZATION ( #201, #192 ) ;
#110 = ORIENTED_EDGE ( 'NONE', *, *, #92, .T. ) ;
#111 = DIRECTION ( 'NONE',  ( 0.0000000000000000000, 0.0000000000000000000, -1.000000000000000000 ) ) ;
#112 = DIRECTION ( 'NONE',  ( 0.0000000000000000000, 0.0000000000000000000, 1.000000000000000000 ) ) ;
#113 = AXIS2_PLACEMENT_3D ( 'NONE', #238, #17, #132 ) ;
#114 = CARTESIAN_POINT ( 'NONE',  ( 0.0000000000000000000, 1.361611643136658100, 14.85673270176685000 ) ) ;
#115 = ADVANCED_BREP_SHAPE_REPRESENTATION ( 'FULLVAC BS1kf1619', ( #295, #180 ), #103 ) ;
#116 = CARTESIAN_POINT ( 'NONE',  ( 29.71346540353370000, 1.361611643136658100, 14.85673270176685000 ) ) ;
#117 = PRODUCT_RELATED_PRODUCT_CATEGORY ( 'detail', '', ( #72 ) ) ;
#118 = DIRECTION ( 'NONE',  ( 0.0000000000000000000, 0.0000000000000000000, -1.000000000000000000 ) ) ;
#119 = CALENDAR_DATE ( 2018, 12, 7 ) ;
#120 = DATE_AND_TIME ( #167, #235 ) ;
#121 = COORDINATED_UNIVERSAL_TIME_OFFSET ( 1, 0, .AHEAD. ) ;
#122 = EDGE_LOOP ( 'NONE', ( #141 ) ) ;
#123 = CARTESIAN_POINT ( 'NONE',  ( 30.00000000000000000, 1.548321221292524100, -15.00000000000000000 ) ) ;
#124 = DIRECTION ( 'NONE',  ( 0.0000000000000000000, 0.0000000000000000000, 1.000000000000000000 ) ) ;
#125 = FACE_OUTER_BOUND ( 'NONE', #122, .T. ) ;
#126 = CYLINDRICAL_SURFACE ( 'NONE', #304, 8.599999999999999600 ) ;
#127 = DIRECTION ( 'NONE',  ( 0.0000000000000000000, -1.000000000000000000, 0.0000000000000000000 ) ) ;
#128 = APPROVAL_STATUS ( 'not_yet_approved' ) ;
#129 = DIRECTION ( 'NONE',  ( 0.0000000000000000000, -1.000000000000000000, 0.0000000000000000000 ) ) ;
#130 = AXIS2_PLACEMENT_3D ( 'NONE', #68, #23, #3 ) ;
#131 = DIRECTION ( 'NONE',  ( -0.0000000000000000000, 1.000000000000000000, -0.0000000000000000000 ) ) ;
#132 = DIRECTION ( 'NONE',  ( 0.0000000000000000000, 0.0000000000000000000, -1.000000000000000000 ) ) ;
#133 = ADVANCED_FACE ( 'NONE', ( #261, #182 ), #126, .F. ) ;
#134 = CARTESIAN_POINT ( 'NONE',  ( 0.0000000000000000000, 1.230000000000000000, 0.0000000000000000000 ) ) ;
#135 = CARTESIAN_POINT ( 'NONE',  ( -30.00000000000000000, 1.548321221292524100, 15.00000000000000000 ) ) ;
#136 = EDGE_CURVE ( 'NONE', #300, #300, #76, .T. ) ;
#137 = CALENDAR_DATE ( 2018, 12, 7 ) ;
#138 = FACE_BOUND ( 'NONE', #293, .T. ) ;
#139 = EDGE_LOOP ( 'NONE', ( #168 ) ) ;
#140 = LOCAL_TIME ( 12, 39, 14.00000000000000000, #154 ) ;
#141 = ORIENTED_EDGE ( 'NONE', *, *, #292, .F. ) ;
#142 = CARTESIAN_POINT ( 'NONE',  ( 0.0000000000000000000, 0.0000000000000000000, 0.0000000000000000000 ) ) ;
#143 = AXIS2_PLACEMENT_3D ( 'NONE', #153, #129, #111 ) ;
#144 = PERSON_AND_ORGANIZATION_ROLE ( 'design_supplier' ) ;
#145 = FACE_BOUND ( 'NONE', #236, .T. ) ;
#146 = ORIENTED_EDGE ( 'NONE', *, *, #136, .T. ) ;
#147 = LOCAL_TIME ( 12, 39, 14.00000000000000000, #177 ) ;
#148 = EDGE_LOOP ( 'NONE', ( #283 ) ) ;
#149 = CARTESIAN_POINT ( 'NONE',  ( 0.0000000000000000000, 4.400000000000000400, 0.0000000000000000000 ) ) ;
#150 = CYLINDRICAL_SURFACE ( 'NONE', #185, 8.255000000000000800 ) ;
#151 = EDGE_CURVE ( 'NONE', #172, #172, #216, .T. ) ;
#152 = DIRECTION ( 'NONE',  ( 0.0000000000000000000, -0.0000000000000000000, -1.000000000000000000 ) ) ;
#153 = CARTESIAN_POINT ( 'NONE',  ( 0.0000000000000000000, 1.860000000000000100, 0.0000000000000000000 ) ) ;
#154 = COORDINATED_UNIVERSAL_TIME_OFFSET ( 1, 0, .AHEAD. ) ;
#155 = FACE_OUTER_BOUND ( 'NONE', #289, .T. ) ;
#156 = DIRECTION ( 'NONE',  ( 0.0000000000000000000, 0.0000000000000000000, -1.000000000000000000 ) ) ;
#157 = EDGE_LOOP ( 'NONE', ( #278 ) ) ;
#158 = PRODUCT_DEFINITION ( 'UNKNOWN', '', #196, #183 ) ;
#159 = DIRECTION ( 'NONE',  ( 0.0000000000000000000, 1.000000000000000000, 0.0000000000000000000 ) ) ;
#160 = CARTESIAN_POINT ( 'NONE',  ( 0.0000000000000000000, 4.400000000000000400, -15.00000000000000000 ) ) ;
#161 = FACE_OUTER_BOUND ( 'NONE', #32, .T. ) ;
#162 = CARTESIAN_POINT ( 'NONE',  ( 0.0000000000000000000, 1.548321221292524400, -15.00000000000000200 ) ) ;
#163 = CC_DESIGN_APPROVAL ( #66, ( #196 ) ) ;
#164 = DIRECTION ( 'NONE',  ( 0.0000000000000000000, -1.000000000000000000, 0.0000000000000000000 ) ) ;
#165 = CARTESIAN_POINT ( 'NONE',  ( -29.71346540353370000, 1.361611643136658100, -14.85673270176685000 ) ) ;
#166 = PLANE ( 'NONE',  #130 ) ;
#167 = CALENDAR_DATE ( 2018, 12, 7 ) ;
#168 = ORIENTED_EDGE ( 'NONE', *, *, #92, .F. ) ;
#169 = DIRECTION ( 'NONE',  ( 0.0000000000000000000, -1.000000000000000000, 0.0000000000000000000 ) ) ;
#170 = DIRECTION ( 'NONE',  ( 1.000000000000000000, 0.0000000000000000000, 0.0000000000000000000 ) ) ;
#171 = CARTESIAN_POINT ( 'NONE',  ( 0.0000000000000000000, 4.400000000000000400, -8.599999999999999600 ) ) ;
#172 = VERTEX_POINT ( 'NONE', #71 ) ;
#173 = FACE_OUTER_BOUND ( 'NONE', #139, .T. ) ;
#174 =( NAMED_UNIT ( * ) SI_UNIT ( $, .STERADIAN. ) SOLID_ANGLE_UNIT ( ) );
#175 = ORIENTED_EDGE ( 'NONE', *, *, #151, .F. ) ;
#176 = EDGE_CURVE ( 'NONE', #241, #241, #98, .T. ) ;
#177 = COORDINATED_UNIVERSAL_TIME_OFFSET ( 1, 0, .AHEAD. ) ;
#178 = APPROVAL_PERSON_ORGANIZATION ( #299, #66, #223 ) ;
#179 = APPROVAL_DATE_TIME ( #247, #102 ) ;
#180 = AXIS2_PLACEMENT_3D ( 'NONE', #142, #124, #170 ) ;
#181 = VERTEX_POINT ( 'NONE', #171 ) ;
#182 = FACE_OUTER_BOUND ( 'NONE', #157, .T. ) ;
#183 = DESIGN_CONTEXT ( 'detailed design', #197, 'design' ) ;
#184 = VERTEX_POINT ( 'NONE', #220 ) ;
#185 = AXIS2_PLACEMENT_3D ( 'NONE', #134, #164, #1 ) ;
#186 = DIRECTION ( 'NONE',  ( 0.0000000000000000000, -1.000000000000000000, 0.0000000000000000000 ) ) ;
#187 = PLANE ( 'NONE',  #59 ) ;
#188 = FACE_OUTER_BOUND ( 'NONE', #148, .T. ) ;
#189 = CC_DESIGN_APPROVAL ( #102, ( #158 ) ) ;
#190 = CARTESIAN_POINT ( 'NONE',  ( 0.0000000000000000000, 1.361611643136658100, -14.85673270176685000 ) ) ;
#191 = DIRECTION ( 'NONE',  ( -0.0000000000000000000, 1.000000000000000000, -0.0000000000000000000 ) ) ;
#192 = ORGANIZATION ( 'UNSPECIFIED', 'UNSPECIFIED', '' ) ;
#193 = DIRECTION ( 'NONE',  ( 0.0000000000000000000, 0.0000000000000000000, -1.000000000000000000 ) ) ;
#194 =( BOUNDED_SURFACE ( )  B_SPLINE_SURFACE ( 3, 3, ( 
 ( #88, #213, #286, #24, #246, #218, #249 ),
 ( #48, #288, #116, #114, #217, #165, #190 ),
 ( #266, #123, #264, #285, #135, #313, #162 ),
 ( #21, #47, #214, #67, #245, #294, #73 ) ),
 .UNSPECIFIED., .F., .T., .F. ) 
 B_SPLINE_SURFACE_WITH_KNOTS ( ( 4, 4 ),
 ( 4, 3, 4 ),
 ( 0.0000000000000000000, 1.000000000000000000 ),
 ( 0.0000000000000000000, 0.5000000000000000000, 1.000000000000000000 ),
 .UNSPECIFIED. ) 
 GEOMETRIC_REPRESENTATION_ITEM ( )  RATIONAL_B_SPLINE_SURFACE ( (
 ( 1.000000000000000000, 0.3333333333333333100, 0.3333333333333333100, 1.000000000000000000, 0.3333333333333333100, 0.3333333333333333100, 1.000000000000000000),
 ( 0.8622355601941731300, 0.2874118533980576900, 0.2874118533980576900, 0.8622355601941731300, 0.2874118533980576900, 0.2874118533980576900, 0.8622355601941731300),
 ( 0.8622355601941731300, 0.2874118533980576900, 0.2874118533980576900, 0.8622355601941731300, 0.2874118533980576900, 0.2874118533980576900, 0.8622355601941731300),
 ( 1.000000000000000000, 0.3333333333333333100, 0.3333333333333333100, 1.000000000000000000, 0.3333333333333333100, 0.3333333333333333100, 1.000000000000000000) ) ) 
 REPRESENTATION_ITEM ( '' )  SURFACE ( )  );
#195 = CARTESIAN_POINT ( 'NONE',  ( 0.0000000000000000000, 1.783663493989480000, -15.00000000000000000 ) ) ;
#196 = PRODUCT_DEFINITION_FORMATION_WITH_SPECIFIED_SOURCE ( 'ANY', '', #72, .NOT_KNOWN. ) ;
#197 = APPLICATION_CONTEXT ( 'configuration controlled 3d designs of mechanical parts and assemblies' ) ;
#198 = CYLINDRICAL_SURFACE ( 'NONE', #16, 15.00000000000000000 ) ;
#199 = MECHANICAL_CONTEXT ( 'NONE', #31, 'mechanical' ) ;
#200 = CARTESIAN_POINT ( 'NONE',  ( 0.0000000000000000000, 1.111133754450044400E-011, 9.775128869400605300 ) ) ;
#201 = PERSON ( 'UNSPECIFIED', 'UNSPECIFIED', 'UNSPECIFIED', ('UNSPECIFIED'), ('UNSPECIFIED'), ('UNSPECIFIED') ) ;
#202 = FACE_OUTER_BOUND ( 'NONE', #11, .T. ) ;
#203 = EDGE_CURVE ( 'NONE', #181, #181, #306, .T. ) ;
#204 = PERSON_AND_ORGANIZATION ( #201, #192 ) ;
#205 = CC_DESIGN_PERSON_AND_ORGANIZATION_ASSIGNMENT ( #273, #94, ( #86 ) ) ;
#206 = EDGE_CURVE ( 'NONE', #184, #184, #297, .T. ) ;
#207 = CIRCLE ( 'NONE', #81, 8.255000000000000800 ) ;
#208 = ADVANCED_FACE ( 'NONE', ( #30, #225 ), #309, .T. ) ;
#209 = EDGE_LOOP ( 'NONE', ( #146 ) ) ;
#210 = ADVANCED_FACE ( 'NONE', ( #145, #155 ), #187, .T. ) ;
#211 = DIRECTION ( 'NONE',  ( 0.0000000000000000000, -1.000000000000000000, 0.0000000000000000000 ) ) ;
#212 = EDGE_LOOP ( 'NONE', ( #35 ) ) ;
#213 = CARTESIAN_POINT ( 'NONE',  ( 29.25881904510259800, 1.300700580844956500, -14.62940952255129900 ) ) ;
#214 = CARTESIAN_POINT ( 'NONE',  ( 29.99999999999999600, 1.783663493989480000, 14.99999999999999800 ) ) ;
#215 = FACE_BOUND ( 'NONE', #56, .T. ) ;
#216 = CIRCLE ( 'NONE', #70, 9.650000000000000400 ) ;
#217 = CARTESIAN_POINT ( 'NONE',  ( -29.71346540353370000, 1.361611643136658100, 14.85673270176685000 ) ) ;
#218 = CARTESIAN_POINT ( 'NONE',  ( -29.25881904510259800, 1.300700580844956500, -14.62940952255129900 ) ) ;
#219 = ORIENTED_EDGE ( 'NONE', *, *, #206, .T. ) ;
#220 = CARTESIAN_POINT ( 'NONE',  ( 0.0000000000000000000, 1.860000000000000100, -8.255000000000000800 ) ) ;
#221 = PERSON_AND_ORGANIZATION_ROLE ( 'design_owner' ) ;
#222 = CC_DESIGN_DATE_AND_TIME_ASSIGNMENT ( #63, #269, ( #86 ) ) ;
#223 = APPROVAL_ROLE ( '' ) ;
#224 = FACE_OUTER_BOUND ( 'NONE', #212, .T. ) ;
#225 = FACE_OUTER_BOUND ( 'NONE', #301, .T. ) ;
#226 = CARTESIAN_POINT ( 'NONE',  ( 0.0000000000000000000, 1.680513367352531900E-015, -9.650000000000000400 ) ) ;
#227 = AXIS2_PLACEMENT_3D ( 'NONE', #28, #74, #251 ) ;
#228 = ORIENTED_EDGE ( 'NONE', *, *, #176, .F. ) ;
#229 = CARTESIAN_POINT ( 'NONE',  ( 0.0000000000000000000, 1.860000000000000100, 0.0000000000000000000 ) ) ;
#230 = AXIS2_PLACEMENT_3D ( 'NONE', #62, #65, #156 ) ;
#231 = VERTEX_POINT ( 'NONE', #195 ) ;
#232 = CIRCLE ( 'NONE', #227, 9.775128869400605300 ) ;
#233 = FACE_OUTER_BOUND ( 'NONE', #84, .T. ) ;
#234 = ADVANCED_FACE ( 'NONE', ( #255, #34 ), #258, .T. ) ;
#235 = LOCAL_TIME ( 12, 39, 14.00000000000000000, #49 ) ;
#236 = EDGE_LOOP ( 'NONE', ( #276 ) ) ;
#237 = ADVANCED_FACE ( 'NONE', ( #188, #138 ), #58, .T. ) ;
#238 = CARTESIAN_POINT ( 'NONE',  ( 0.0000000000000000000, 1.680513367352531900E-015, 0.0000000000000000000 ) ) ;
#239 = DIRECTION ( 'NONE',  ( 0.0000000000000000000, -0.0000000000000000000, -1.000000000000000000 ) ) ;
#240 = CARTESIAN_POINT ( 'NONE',  ( 9.650000000000000400, 1.774455499099550200E-015, 0.0000000000000000000 ) ) ;
#241 = VERTEX_POINT ( 'NONE', #226 ) ;
#242 = APPROVAL ( #268, 'UNSPECIFIED' ) ;
#243 = FACE_OUTER_BOUND ( 'NONE', #26, .T. ) ;
#244 = ORIENTED_EDGE ( 'NONE', *, *, #254, .F. ) ;
#245 = CARTESIAN_POINT ( 'NONE',  ( -29.99999999999999600, 1.783663493989480000, 14.99999999999999800 ) ) ;
#246 = CARTESIAN_POINT ( 'NONE',  ( -29.25881904510259800, 1.300700580844956500, 14.62940952255129900 ) ) ;
#247 = DATE_AND_TIME ( #55, #104 ) ;
#248 = EDGE_LOOP ( 'NONE', ( #244 ) ) ;
#249 = CARTESIAN_POINT ( 'NONE',  ( 0.0000000000000000000, 1.300700580844956500, -14.62940952255130100 ) ) ;
#250 = VERTEX_POINT ( 'NONE', #200 ) ;
#251 = DIRECTION ( 'NONE',  ( 0.0000000000000000000, 0.0000000000000000000, 1.000000000000000000 ) ) ;
#252 = SECURITY_CLASSIFICATION_LEVEL ( 'unclassified' ) ;
#253 = APPROVAL_PERSON_ORGANIZATION ( #2, #102, #51 ) ;
#254 = EDGE_CURVE ( 'NONE', #45, #45, #207, .T. ) ;
#255 = FACE_BOUND ( 'NONE', #19, .T. ) ;
#256 = CYLINDRICAL_SURFACE ( 'NONE', #33, 9.650000000000000400 ) ;
#257 = CC_DESIGN_APPROVAL ( #242, ( #86 ) ) ;
#258 = PLANE ( 'NONE',  #12 ) ;
#259 = ADVANCED_FACE ( 'NONE', ( #215, #202 ), #166, .T. ) ;
#260 = DIRECTION ( 'NONE',  ( 0.0000000000000000000, 0.0000000000000000000, -1.000000000000000000 ) ) ;
#261 = FACE_OUTER_BOUND ( 'NONE', #37, .T. ) ;
#262 = DIRECTION ( 'NONE',  ( 0.0000000000000000000, 0.0000000000000000000, -1.000000000000000000 ) ) ;
#263 = AXIS2_PLACEMENT_3D ( 'NONE', #43, #159, #82 ) ;
#264 = CARTESIAN_POINT ( 'NONE',  ( 30.00000000000000000, 1.548321221292524100, 15.00000000000000000 ) ) ;
#265 = CARTESIAN_POINT ( 'NONE',  ( 0.0000000000000000000, 0.6000000000000029800, 0.0000000000000000000 ) ) ;
#266 = CARTESIAN_POINT ( 'NONE',  ( 0.0000000000000000000, 1.548321221292524400, -15.00000000000000200 ) ) ;
#267 = AXIS2_PLACEMENT_3D ( 'NONE', #22, #311, #193 ) ;
#268 = APPROVAL_STATUS ( 'not_yet_approved' ) ;
#269 = DATE_TIME_ROLE ( 'classification_date' ) ;
#270 = DIRECTION ( 'NONE',  ( 0.0000000000000000000, 0.0000000000000000000, -1.000000000000000000 ) ) ;
#271 = PERSON_AND_ORGANIZATION_ROLE ( 'creator' ) ;
#272 = APPLICATION_PROTOCOL_DEFINITION ( 'international standard', 'config_control_design', 1994, #31 ) ;
#273 = PERSON_AND_ORGANIZATION ( #201, #192 ) ;
#274 = SHAPE_DEFINITION_REPRESENTATION ( #277, #115 ) ;
#275 = AXIS2_PLACEMENT_3D ( 'NONE', #149, #9, #106 ) ;
#276 = ORIENTED_EDGE ( 'NONE', *, *, #176, .T. ) ;
#277 = PRODUCT_DEFINITION_SHAPE ( 'NONE', 'NONE',  #158 ) ;
#278 = ORIENTED_EDGE ( 'NONE', *, *, #96, .F. ) ;
#279 = DIRECTION ( 'NONE',  ( -0.0000000000000000000, 1.000000000000000000, -0.0000000000000000000 ) ) ;
#280 = ADVANCED_FACE ( 'NONE', ( #224, #91 ), #150, .F. ) ;
#281 = ORIENTED_EDGE ( 'NONE', *, *, #78, .F. ) ;
#282 = PERSON_AND_ORGANIZATION ( #201, #192 ) ;
#283 = ORIENTED_EDGE ( 'NONE', *, *, #136, .F. ) ;
#284 = CARTESIAN_POINT ( 'NONE',  ( 8.255000000000000800, 0.6000000000000029800, 0.0000000000000000000 ) ) ;
#285 = CARTESIAN_POINT ( 'NONE',  ( 0.0000000000000000000, 1.548321221292524400, 15.00000000000000200 ) ) ;
#286 = CARTESIAN_POINT ( 'NONE',  ( 29.25881904510259800, 1.300700580844956500, 14.62940952255129900 ) ) ;
#287 = APPROVAL_DATE_TIME ( #57, #66 ) ;
#288 = CARTESIAN_POINT ( 'NONE',  ( 29.71346540353370000, 1.361611643136658100, -14.85673270176685000 ) ) ;
#289 = EDGE_LOOP ( 'NONE', ( #281 ) ) ;
#290 = CC_DESIGN_PERSON_AND_ORGANIZATION_ASSIGNMENT ( #282, #291, ( #196 ) ) ;
#291 = PERSON_AND_ORGANIZATION_ROLE ( 'creator' ) ;
#292 = EDGE_CURVE ( 'NONE', #231, #231, #75, .T. ) ;
#293 = EDGE_LOOP ( 'NONE', ( #308 ) ) ;
#294 = CARTESIAN_POINT ( 'NONE',  ( -29.99999999999999600, 1.783663493989480000, -14.99999999999999800 ) ) ;
#295 = MANIFOLD_SOLID_BREP ( '\X2\5BE69AD4\X0\2', #105 ) ;
#296 = APPROVAL_DATE_TIME ( #13, #242 ) ;
#297 = CIRCLE ( 'NONE', #143, 8.255000000000000800 ) ;
#298 = EDGE_LOOP ( 'NONE', ( #219 ) ) ;
#299 = PERSON_AND_ORGANIZATION ( #201, #192 ) ;
#300 = VERTEX_POINT ( 'NONE', #44 ) ;
#301 = EDGE_LOOP ( 'NONE', ( #46 ) ) ;
#302 = CC_DESIGN_PERSON_AND_ORGANIZATION_ASSIGNMENT ( #109, #271, ( #158 ) ) ;
#303 = ADVANCED_FACE ( 'NONE', ( #29, #125 ), #194, .T. ) ;
#304 = AXIS2_PLACEMENT_3D ( 'NONE', #108, #211, #20 ) ;
#305 = CALENDAR_DATE ( 2018, 12, 7 ) ;
#306 = CIRCLE ( 'NONE', #230, 8.599999999999999600 ) ;
#307 = DIRECTION ( 'NONE',  ( 0.0000000000000000000, 0.0000000000000000000, -1.000000000000000000 ) ) ;
#308 = ORIENTED_EDGE ( 'NONE', *, *, #78, .T. ) ;
#309 = PLANE ( 'NONE',  #263 ) ;
#310 = APPROVAL_PERSON_ORGANIZATION ( #18, #242, #100 ) ;
#311 = DIRECTION ( 'NONE',  ( -0.0000000000000000000, 1.000000000000000000, -0.0000000000000000000 ) ) ;
#312 = AXIS2_PLACEMENT_3D ( 'NONE', #85, #38, #112 ) ;
#313 = CARTESIAN_POINT ( 'NONE',  ( -30.00000000000000000, 1.548321221292524100, -15.00000000000000000 ) ) ;
ENDSEC;
END-ISO-10303-21;
